ISO-10303-21;
HEADER;
FILE_DESCRIPTION (( 'STEP AP203' ),
    '1' );
FILE_NAME ('BK7-LNPBSP-50.8-532.STEP',
    '2020-12-22T04:12:50',
    ( '' ),
    ( '' ),
    'SwSTEP 2.0',
    'SolidWorks 2020',
    '' );
FILE_SCHEMA (( 'CONFIG_CONTROL_DESIGN' ));
ENDSEC;

DATA;
#1 = CYLINDRICAL_SURFACE ( 'NONE', #129, 25.39999999999999858 ) ;
#2 = CC_DESIGN_APPROVAL ( #93, ( #113 ) ) ;
#3 = LOCAL_TIME ( 12, 12, 50.00000000000000000, #135 ) ;
#4 = CARTESIAN_POINT ( 'NONE',  ( -2.743208830090071026E-15, 3.110602869834276865E-15, -25.39999999999999858 ) ) ;
#5 = CC_DESIGN_DATE_AND_TIME_ASSIGNMENT ( #17, #152, ( #113 ) ) ;
#6 = PLANE ( 'NONE',  #13 ) ;
#7 = DIRECTION ( 'NONE',  ( 0.000000000000000000, 0.000000000000000000, -1.000000000000000000 ) ) ;
#8 = CIRCLE ( 'NONE', #99, 25.39999999999999858 ) ;
#9 = APPROVAL ( #90, 'UNSPECIFIED' ) ;
#10 = PERSON_AND_ORGANIZATION_ROLE ( 'design_owner' ) ;
#11 = CARTESIAN_POINT ( 'NONE',  ( 0.000000000000000000, 0.000000000000000000, 0.000000000000000000 ) ) ;
#12 = COORDINATED_UNIVERSAL_TIME_OFFSET ( 8, 0, .AHEAD. ) ;
#13 = AXIS2_PLACEMENT_3D ( 'NONE', #169, #22, #7 ) ;
#14 = ORIENTED_EDGE ( 'NONE', *, *, #38, .F. ) ;
#15 = APPROVAL_ROLE ( '' ) ;
#16 = DIRECTION ( 'NONE',  ( -1.000000000000000000, -0.000000000000000000, -0.000000000000000000 ) ) ;
#17 = DATE_AND_TIME ( #173, #3 ) ;
#18 = PRODUCT_DEFINITION_SHAPE ( 'NONE', 'NONE',  #113 ) ;
#19 = ORIENTED_EDGE ( 'NONE', *, *, #38, .T. ) ;
#20 = CARTESIAN_POINT ( 'NONE',  ( 2.999999999999996891, 0.000000000000000000, 0.000000000000000000 ) ) ;
#21 = DIRECTION ( 'NONE',  ( 0.000000000000000000, 0.000000000000000000, 1.000000000000000000 ) ) ;
#22 = DIRECTION ( 'NONE',  ( 1.000000000000000000, 0.000000000000000000, 0.000000000000000000 ) ) ;
#23 = AXIS2_PLACEMENT_3D ( 'NONE', #11, #114, #156 ) ;
#24 = APPROVAL_PERSON_ORGANIZATION ( #47, #30, #66 ) ;
#25 = APPLICATION_PROTOCOL_DEFINITION ( 'international standard', 'config_control_design', 1994, #76 ) ;
#26 = CC_DESIGN_PERSON_AND_ORGANIZATION_ASSIGNMENT ( #137, #174, ( #64 ) ) ;
#27 = PERSON_AND_ORGANIZATION_ROLE ( 'creator' ) ;
#28 = DIRECTION ( 'NONE',  ( -1.000000000000000000, -0.000000000000000000, -0.000000000000000000 ) ) ;
#29 = ORIENTED_EDGE ( 'NONE', *, *, #127, .T. ) ;
#30 = APPROVAL ( #89, 'UNSPECIFIED' ) ;
#31 = DIRECTION ( 'NONE',  ( -1.000000000000000000, -0.000000000000000000, -0.000000000000000000 ) ) ;
#32 = PERSON_AND_ORGANIZATION_ROLE ( 'design_supplier' ) ;
#33 = CIRCLE ( 'NONE', #73, 25.39999999999999858 ) ;
#34 = AXIS2_PLACEMENT_3D ( 'NONE', #20, #50, #168 ) ;
#35 = DIRECTION ( 'NONE',  ( -1.000000000000000000, -0.000000000000000000, -0.000000000000000000 ) ) ;
#36 = UNCERTAINTY_MEASURE_WITH_UNIT (LENGTH_MEASURE( 1.000000000000000082E-05 ), #54, 'distance_accuracy_value', 'NONE');
#37 = CARTESIAN_POINT ( 'NONE',  ( 2.999999999999998224, 25.39999999999999858, 0.000000000000000000 ) ) ;
#38 = EDGE_CURVE ( 'NONE', #44, #136, #8, .T. ) ;
#39 = MANIFOLD_SOLID_BREP ( 'Ðý×', #157 ) ;
#40 = CC_DESIGN_PERSON_AND_ORGANIZATION_ASSIGNMENT ( #58, #32, ( #132 ) ) ;
#41 = DATE_AND_TIME ( #56, #143 ) ;
#42 =( GEOMETRIC_REPRESENTATION_CONTEXT ( 3 ) GLOBAL_UNCERTAINTY_ASSIGNED_CONTEXT ( ( #36 ) ) GLOBAL_UNIT_ASSIGNED_CONTEXT ( ( #54, #130, #115 ) ) REPRESENTATION_CONTEXT ( 'NONE', 'WORKASPACE' ) );
#43 = PRODUCT ( 'BK7-LNPBSP-50.8-532', 'BK7-LNPBSP-50.8-532', '', ( #131 ) ) ;
#44 = VERTEX_POINT ( 'NONE', #120 ) ;
#45 = DATE_TIME_ROLE ( 'classification_date' ) ;
#46 = FACE_OUTER_BOUND ( 'NONE', #160, .T. ) ;
#47 = PERSON_AND_ORGANIZATION ( #142, #97 ) ;
#48 = CARTESIAN_POINT ( 'NONE',  ( -2.743208830090071026E-15, 0.000000000000000000, 0.000000000000000000 ) ) ;
#49 = VECTOR ( 'NONE', #71, 1000.000000000000000 ) ;
#50 = DIRECTION ( 'NONE',  ( -1.000000000000000000, -0.000000000000000000, -0.000000000000000000 ) ) ;
#51 = EDGE_CURVE ( 'NONE', #149, #166, #33, .T. ) ;
#52 = DIRECTION ( 'NONE',  ( -1.000000000000000000, -0.000000000000000000, -0.000000000000000000 ) ) ;
#53 = CIRCLE ( 'NONE', #84, 25.39999999999999858 ) ;
#54 =( LENGTH_UNIT ( ) NAMED_UNIT ( * ) SI_UNIT ( .MILLI., .METRE. ) );
#55 = VECTOR ( 'NONE', #35, 1000.000000000000000 ) ;
#56 = CALENDAR_DATE ( 2020, 22, 12 ) ;
#57 = CARTESIAN_POINT ( 'NONE',  ( 2.999999999999996891, 0.000000000000000000, 0.000000000000000000 ) ) ;
#58 = PERSON_AND_ORGANIZATION ( #142, #97 ) ;
#59 = ORIENTED_EDGE ( 'NONE', *, *, #86, .F. ) ;
#60 = CC_DESIGN_PERSON_AND_ORGANIZATION_ASSIGNMENT ( #77, #27, ( #113 ) ) ;
#61 = CARTESIAN_POINT ( 'NONE',  ( 0.000000000000000000, 0.000000000000000000, 0.000000000000000000 ) ) ;
#62 = LINE ( 'NONE', #167, #49 ) ;
#63 = DIRECTION ( 'NONE',  ( -1.000000000000000000, 0.000000000000000000, -0.000000000000000000 ) ) ;
#64 = SECURITY_CLASSIFICATION ( '', '', #121 ) ;
#65 = APPROVAL_STATUS ( 'not_yet_approved' ) ;
#66 = APPROVAL_ROLE ( '' ) ;
#67 = LOCAL_TIME ( 12, 12, 50.00000000000000000, #12 ) ;
#68 = APPROVAL_DATE_TIME ( #79, #30 ) ;
#69 = PERSON_AND_ORGANIZATION_ROLE ( 'creator' ) ;
#70 = ORIENTED_EDGE ( 'NONE', *, *, #127, .F. ) ;
#71 = DIRECTION ( 'NONE',  ( -1.000000000000000000, -0.000000000000000000, -0.000000000000000000 ) ) ;
#72 = CARTESIAN_POINT ( 'NONE',  ( 2.999999999999996891, 0.000000000000000000, 25.39999999999999858 ) ) ;
#73 = AXIS2_PLACEMENT_3D ( 'NONE', #57, #102, #161 ) ;
#74 = APPROVAL_PERSON_ORGANIZATION ( #103, #9, #15 ) ;
#75 = ADVANCED_FACE ( 'NONE', ( #46 ), #91, .T. ) ;
#76 = APPLICATION_CONTEXT ( 'configuration controlled 3d designs of mechanical parts and assemblies' ) ;
#77 = PERSON_AND_ORGANIZATION ( #142, #97 ) ;
#78 = ORIENTED_EDGE ( 'NONE', *, *, #172, .F. ) ;
#79 = DATE_AND_TIME ( #148, #141 ) ;
#80 = CC_DESIGN_SECURITY_CLASSIFICATION ( #64, ( #132 ) ) ;
#81 = DIRECTION ( 'NONE',  ( 0.000000000000000000, 0.000000000000000000, 1.000000000000000000 ) ) ;
#82 = COORDINATED_UNIVERSAL_TIME_OFFSET ( 8, 0, .AHEAD. ) ;
#83 = DIRECTION ( 'NONE',  ( 0.000000000000000000, 0.000000000000000000, 1.000000000000000000 ) ) ;
#84 = AXIS2_PLACEMENT_3D ( 'NONE', #138, #16, #83 ) ;
#85 = PRODUCT_RELATED_PRODUCT_CATEGORY ( 'detail', '', ( #43 ) ) ;
#86 = EDGE_CURVE ( 'NONE', #136, #44, #53, .T. ) ;
#87 = CALENDAR_DATE ( 2020, 22, 12 ) ;
#88 = EDGE_LOOP ( 'NONE', ( #19, #123 ) ) ;
#89 = APPROVAL_STATUS ( 'not_yet_approved' ) ;
#90 = APPROVAL_STATUS ( 'not_yet_approved' ) ;
#91 = CYLINDRICAL_SURFACE ( 'NONE', #109, 25.39999999999999858 ) ;
#92 = AXIS2_PLACEMENT_3D ( 'NONE', #37, #63, #128 ) ;
#93 = APPROVAL ( #65, 'UNSPECIFIED' ) ;
#94 = FACE_OUTER_BOUND ( 'NONE', #134, .T. ) ;
#95 = PLANE ( 'NONE',  #92 ) ;
#96 = ADVANCED_FACE ( 'NONE', ( #124 ), #1, .T. ) ;
#97 = ORGANIZATION ( 'UNSPECIFIED', 'UNSPECIFIED', '' ) ;
#98 = APPLICATION_CONTEXT ( 'configuration controlled 3d designs of mechanical parts and assemblies' ) ;
#99 = AXIS2_PLACEMENT_3D ( 'NONE', #48, #28, #164 ) ;
#100 = APPLICATION_PROTOCOL_DEFINITION ( 'international standard', 'config_control_design', 1994, #98 ) ;
#101 = CALENDAR_DATE ( 2020, 22, 12 ) ;
#102 = DIRECTION ( 'NONE',  ( -1.000000000000000000, -0.000000000000000000, -0.000000000000000000 ) ) ;
#103 = PERSON_AND_ORGANIZATION ( #142, #97 ) ;
#104 = LOCAL_TIME ( 12, 12, 50.00000000000000000, #82 ) ;
#105 = ORIENTED_EDGE ( 'NONE', *, *, #51, .T. ) ;
#106 = DATE_AND_TIME ( #87, #104 ) ;
#107 = ORIENTED_EDGE ( 'NONE', *, *, #163, .F. ) ;
#108 = DATE_AND_TIME ( #101, #67 ) ;
#109 = AXIS2_PLACEMENT_3D ( 'NONE', #151, #31, #81 ) ;
#110 = CARTESIAN_POINT ( 'NONE',  ( 0.000000000000000000, 0.000000000000000000, 25.39999999999999858 ) ) ;
#111 = CARTESIAN_POINT ( 'NONE',  ( 2.999999999999996891, 3.110602869834276865E-15, -25.39999999999999858 ) ) ;
#112 = ADVANCED_BREP_SHAPE_REPRESENTATION ( 'BK7-LNPBSP-50.8-532', ( #39, #23 ), #42 ) ;
#113 = PRODUCT_DEFINITION ( 'UNKNOWN', '', #132, #126 ) ;
#114 = DIRECTION ( 'NONE',  ( 0.000000000000000000, 0.000000000000000000, 1.000000000000000000 ) ) ;
#115 =( NAMED_UNIT ( * ) SI_UNIT ( $, .STERADIAN. ) SOLID_ANGLE_UNIT ( ) );
#116 = APPROVAL_ROLE ( '' ) ;
#117 = ORIENTED_EDGE ( 'NONE', *, *, #172, .T. ) ;
#118 = ADVANCED_FACE ( 'NONE', ( #94 ), #95, .F. ) ;
#119 = SHAPE_DEFINITION_REPRESENTATION ( #18, #112 ) ;
#120 = CARTESIAN_POINT ( 'NONE',  ( -2.743208830090071026E-15, 0.000000000000000000, 25.39999999999999858 ) ) ;
#121 = SECURITY_CLASSIFICATION_LEVEL ( 'unclassified' ) ;
#122 = CC_DESIGN_DATE_AND_TIME_ASSIGNMENT ( #106, #45, ( #64 ) ) ;
#123 = ORIENTED_EDGE ( 'NONE', *, *, #86, .T. ) ;
#124 = FACE_OUTER_BOUND ( 'NONE', #153, .T. ) ;
#125 = CC_DESIGN_APPROVAL ( #30, ( #64 ) ) ;
#126 = DESIGN_CONTEXT ( 'detailed design', #76, 'design' ) ;
#127 = EDGE_CURVE ( 'NONE', #149, #44, #140, .T. ) ;
#128 = DIRECTION ( 'NONE',  ( -0.000000000000000000, 0.000000000000000000, 1.000000000000000000 ) ) ;
#129 = AXIS2_PLACEMENT_3D ( 'NONE', #61, #52, #21 ) ;
#130 =( NAMED_UNIT ( * ) PLANE_ANGLE_UNIT ( ) SI_UNIT ( $, .RADIAN. ) );
#131 = MECHANICAL_CONTEXT ( 'NONE', #98, 'mechanical' ) ;
#132 = PRODUCT_DEFINITION_FORMATION_WITH_SPECIFIED_SOURCE ( 'ANY', '', #43, .NOT_KNOWN. ) ;
#133 = PERSON_AND_ORGANIZATION ( #142, #97 ) ;
#134 = EDGE_LOOP ( 'NONE', ( #150, #78 ) ) ;
#135 = COORDINATED_UNIVERSAL_TIME_OFFSET ( 8, 0, .AHEAD. ) ;
#136 = VERTEX_POINT ( 'NONE', #4 ) ;
#137 = PERSON_AND_ORGANIZATION ( #142, #97 ) ;
#138 = CARTESIAN_POINT ( 'NONE',  ( -2.743208830090071026E-15, 0.000000000000000000, 0.000000000000000000 ) ) ;
#139 = COORDINATED_UNIVERSAL_TIME_OFFSET ( 8, 0, .AHEAD. ) ;
#140 = LINE ( 'NONE', #110, #55 ) ;
#141 = LOCAL_TIME ( 12, 12, 50.00000000000000000, #139 ) ;
#142 = PERSON ( 'UNSPECIFIED', 'UNSPECIFIED', 'UNSPECIFIED', ('UNSPECIFIED'), ('UNSPECIFIED'), ('UNSPECIFIED') ) ;
#143 = LOCAL_TIME ( 12, 12, 50.00000000000000000, #171 ) ;
#144 = CC_DESIGN_PERSON_AND_ORGANIZATION_ASSIGNMENT ( #133, #69, ( #132 ) ) ;
#145 = CC_DESIGN_PERSON_AND_ORGANIZATION_ASSIGNMENT ( #146, #10, ( #43 ) ) ;
#146 = PERSON_AND_ORGANIZATION ( #142, #97 ) ;
#147 = APPROVAL_DATE_TIME ( #41, #93 ) ;
#148 = CALENDAR_DATE ( 2020, 22, 12 ) ;
#149 = VERTEX_POINT ( 'NONE', #72 ) ;
#150 = ORIENTED_EDGE ( 'NONE', *, *, #51, .F. ) ;
#151 = CARTESIAN_POINT ( 'NONE',  ( 0.000000000000000000, 0.000000000000000000, 0.000000000000000000 ) ) ;
#152 = DATE_TIME_ROLE ( 'creation_date' ) ;
#153 = EDGE_LOOP ( 'NONE', ( #105, #165, #14, #70 ) ) ;
#154 = FACE_OUTER_BOUND ( 'NONE', #88, .T. ) ;
#155 = APPROVAL_PERSON_ORGANIZATION ( #158, #93, #116 ) ;
#156 = DIRECTION ( 'NONE',  ( 1.000000000000000000, 0.000000000000000000, 0.000000000000000000 ) ) ;
#157 = CLOSED_SHELL ( 'NONE', ( #96, #75, #118, #175 ) ) ;
#158 = PERSON_AND_ORGANIZATION ( #142, #97 ) ;
#159 = APPROVAL_DATE_TIME ( #108, #9 ) ;
#160 = EDGE_LOOP ( 'NONE', ( #107, #117, #29, #59 ) ) ;
#161 = DIRECTION ( 'NONE',  ( 0.000000000000000000, 0.000000000000000000, 1.000000000000000000 ) ) ;
#162 = CIRCLE ( 'NONE', #34, 25.39999999999999858 ) ;
#163 = EDGE_CURVE ( 'NONE', #166, #136, #62, .T. ) ;
#164 = DIRECTION ( 'NONE',  ( 0.000000000000000000, 0.000000000000000000, 1.000000000000000000 ) ) ;
#165 = ORIENTED_EDGE ( 'NONE', *, *, #163, .T. ) ;
#166 = VERTEX_POINT ( 'NONE', #111 ) ;
#167 = CARTESIAN_POINT ( 'NONE',  ( 0.000000000000000000, 3.110602869834276865E-15, -25.39999999999999858 ) ) ;
#168 = DIRECTION ( 'NONE',  ( 0.000000000000000000, 0.000000000000000000, 1.000000000000000000 ) ) ;
#169 = CARTESIAN_POINT ( 'NONE',  ( -1.371604415045035513E-15, 25.39999999999999858, 0.000000000000000000 ) ) ;
#170 = CC_DESIGN_APPROVAL ( #9, ( #132 ) ) ;
#171 = COORDINATED_UNIVERSAL_TIME_OFFSET ( 8, 0, .AHEAD. ) ;
#172 = EDGE_CURVE ( 'NONE', #166, #149, #162, .T. ) ;
#173 = CALENDAR_DATE ( 2020, 22, 12 ) ;
#174 = PERSON_AND_ORGANIZATION_ROLE ( 'classification_officer' ) ;
#175 = ADVANCED_FACE ( 'NONE', ( #154 ), #6, .F. ) ;
ENDSEC;
END-ISO-10303-21;
